Jingle Bells Tab per chitarra elettrica

Tab completa di Jingle Bells Tab per chitarra elettrica

e|--0-0-0-----0-0-0-----0-3-----0-|-1-1-1-1-1-0-0-0-0-----0-|
b|--------------------------1-3---|-------------------3-3---|
g|--------------------------------|-------------------------|
d|--------------------------------|-------------------------|
a|--------------------------------|-------------------------|sulle-note-di-un-libro-4-joyce-e-la-musica-L-OT25SN
E|--------------------------------|-------------------------|

e|--3--0-0-0----0-0-0----0-3-----0-|--1-1-1-1-1-0-0-0-3-3-1-|
b|3--------------------------1-3---|------------------------|
g|---------------------------------|------------------------|
d|---------------------------------|------------------------|
a|---------------------------------|------------------------|
E|---------------------------------|------------------------|

e|---------------------------------------------------------|
b|3-1------------------------------------------------------|
g|---------------------------------------------------------|
d|---------------------------------------------------------|
a|---------------------------------------------------------|
E|---------------------------------------------------------|

Lascia un commento

Il tuo indirizzo email non sarà pubblicato. I campi obbligatori sono contrassegnati *

*