Accordi e tab Wish you were here (per chitarra) – canzone dei Pink floyd

La copertina dell'album dei Pink Floyd, "Wish you were here"
La copertina dell’album dei Pink Floyd, Wish you were here

Ecco gli accordi per la chitarra e la tab di “Wish you were here“, composta da David Gilmour e Roger Waters nel 1975, canzone stupenda che dovreste assolutamente imparare a suonare.

– Ecco la tab dell’intro di Wish you were here:

*  ripetere più volte gli accordi

                   *                   *
e---------------------3-------------------3---|
B---------------------3-------------------3---|
G---------------------0-------0-----------0---|
D-------------0--2----2----2-----2--0-----0---|
A------0h2------------0-------------------2---|
E---3-----------------x-------------------3---|

                   *                   *
e---------------------3-------------------3---|
B---------------------3-------------------3---|
G---------------------0-------------------2---|
D-------------0--2----2----2--0-----------2---|
A------0h2------------0----------2--0-----0---|
E---3-----------------x-------------------0---|
               *
e-----------------3---|
B-----------------3---|
G-----------------0---|
D-----------------0---|
A---0—2p0------2--2---|
E---------3-3—-3--3---|

Solo: (solo seconda chitarra)

e----------------------------------------------------------|
B----------3---5---0---3-----0-----------------------------|
G-----2/4-------------------------2---0--------------------|
D------------------------------------------0---------0---0-|
A-----------------------------------------------1/2--------|
E----------------------------------------------------------|


e----3/5-5/3-----------------------------------------------|
B----3/5-5/3----3/5-5/3---------3/5-5/3---3---(/0)---------|
G---------------2/4-4/2----0----2/4-4/2p0-0----------------|
D----------------------------------------------------------|
A----------------------------------------------------------|
E----------------------------------------------------------|


e---------------------------------------------------------------|
B--------3---0---5---5b---0----3-------------3-----5------------|
G--2/4-----------------------------2----4b---------------4b---2-|
D---------------------------------------------------------------|
A---------------------------------------------------------------|
E---------------------------------------------------------------|


e---------------------------------------------------------------|
B---------3----0----5-----5b-----5---3--5-----------------------|
G----2/4------------------------------------2-------4b----2-----|
D---------------------------------------------------------------|
A---------------------------------------------------------------|
E---------------------------------------------------------------|


                              (Fine del solo).

            Accordi usati per il resto di Wish you were here
                             C     D    Am     G
                          e--0--|--2--|--0--|--3--|
                          B--1--|--3--|--1--|--0--|
                          G--0--|--2--|--2--|--0--|
                          D--2--|--0--|--2--|--0--|
                          A--3--|--0--|--0--|--2--|
                          E--0--|--0--|--0--|--3--|

Ecco, dopo la tab di Wish you were here, gli accordi per questa canzone:

C                                 D

So, so you think you can tell,

Am                  G

Heaven from Hell, blue skies from pain?

D                               C                         Am

Can you tell a green field from a cold steel rail, a smile from a veil?

G

Do you think you can tell?

C                               D

And did they get you to trade your heroes for ghosts,

Am                            G                                            D

 Hot ashes for trees, hot air for a cool breeze, cold comfort for change,

C                                   Am                             G

And did you exchange a walk on part in the war for a lead role in a cage?

 

C                                                D

How I wish, how I wish you were here.

Am                                                   G

We’re just two lost souls swimming in a fish bowl, year after year,

D                                              C

Running over the same old ground, have we found

Am                            G

The same old fears?  Wish you were here.

-Outro

G        Em        G        Em

Ecco, questi erano gli accordi di Wish you were here per chitarra, assieme alla tab; potrebbe essere utile anche questo video che spiega come suonare Wish you were here:

Lascia un commento

Il tuo indirizzo email non sarà pubblicato. I campi obbligatori sono contrassegnati *

*